PDA

View Full Version : gravedigger intro?


trippinbillyrmc
03-01-2007, 03:30 PM
-----0----------------------------------------
-----1---1---1---------1---1--------------
-----2---0---x----2----0---x--------------
-----2---2---0----3----2---0---0---2-----
-----0---3---2----3----3---2---0---2-----
------------------1----------------0-----

I am by no means a good guitar player, but this is what I hear...

anyone else care to try?

cnfloyd84
03-01-2007, 05:41 PM
I think that looks pretty good, I've only watched it a couple times but one thing I would add is he does a hammer on and pull off from the E to F:

-----0-0-0-0-------
-----1-1-1-1-------
-----2-2-2-2-------
-----2-2-2-2h3p2--
-----0-0-0-0-------
---------------------

do this for the first 2 chords
but um not really sure where exactly you hear the second part of it, starting with the C..sounds to me like he's just playing the 1st 4 chords over again


edit: 3rd chord is probably just a G chord
3
0
0
0
2
3

monkey
03-02-2007, 06:21 PM
I thought it was

Am / Am with a G bass / E / Am / Am with G bass / D with F# bass

no??

cnfloyd84
03-02-2007, 11:03 PM
He's talking about the new D+T intro

http://thesedayscontinue.org/showthread.php?t=195168

monkey
03-04-2007, 09:35 AM
He's talking about the new D+T intro

http://thesedayscontinue.org/showthread.php?t=195168

still haven't heard it. I will give it a listen today.