PDA

View Full Version : accurate corn bread tabs


resthighabove...
08-17-2007, 04:01 PM
ssia.

thanks
basically just looking for verse tabs that are accurate.

dmb8021
08-19-2007, 10:11 PM
got this from dmbtabs

1 1 4 1 1 4 4 4 1 1 4 1 1 4 1 1
E:-----------------------------------------------------------------------
B:-----------------------------------------------------------------------
G:------0---0---0---0---0---0---0---0---0---0---0---0---0---0---0---0----
D:----5---5---7---3---3---5---5---5---5---5---7---3---3---5--------------
A:------------------------------------------------------------3---2------
E:-----------------------------------------------------------------------

(basic pattern)
E:------3-3------3-3----
B:------3-3--3-3-3-3----
G:--0-0-0-0--0-0-0-0----
D:--0-0-0-0--2-2--------
A:--2-2------3-3--------
E:--3-3-----------------

Break (***3-2-07 version***)
E:----------3---------
B:--1---1---0-----------
G:--2---2---0------------
D:--2---2---0-----------
A:--0---0---2-----------
E:------1---3----------

first chord (Am) could be played like this

E:----
B:----
G:--5-
D:--x-
A:--3-
E:--5-

"it's all inside my head..."
(fingerpicked by Tim, strummed by Dave)
E:--------------
B:--4--3--2--1--
G:--0--0--0--0-- x 2
D:--5--4--3--2--
A:--6--5--4--3--
E:--------------

resthighabove...
01-15-2008, 12:12 PM
couldn't find original