PDA

View Full Version : #27 Tab?????????


trippinbillyrmc
08-25-2007, 06:41 PM
Anyone bother yet, I have been messing around a bit but nothing thats very good...

Rud
08-26-2007, 03:34 PM
#27

Intro (Dave)
-------------------------------------------------
-------------------------------------------------
-4p2-0-2------4p2-2h4----4p2-0-0h2----2h4-2-2h4--
-------------------------------------------------
-------------------------------------------------
----------0--------------------------------------


Verse (just a general idea, play with
the picking pattern)
------------------------------------
------------------------------------
---------2-------------2------------
-2-------2------2------2------2-----etc
-2-------0------2------0------2-----
-0--------------0-------------0-----


("I'm so lost..."/"I'm so sick...") part
-3----2----------
-0----3----2-----
-0----2----2-----
-0----0----2-----
-2---------0-----
-3---------------

Break
------------------------
------------------------
-7---6---5---4---3------ x 2
-x---x---x---x---x------
-5---4---3---2---1------
------------------------

or

------------------------
------------------------
-7---6---5---4---3------ x 2
-x---x---x---x---x------
-5---4---3---2---1------
-7---5---5---3---3------

dkamis
08-27-2007, 07:50 PM
if thats accurate than it just goes to show that dave isn't doing anything new and is just recycling old ideas

firedncin8nancy
08-28-2007, 10:12 AM
if you needed to see the tab to see what he was playing to make that assesment then that's a ridiculous thing to say. if the tab is not accurate and he is playing those same chords with different fingerings then, what, thats new? the song sounds like down by the river but a touch more dmb style. i think its something refreshing even if its not fresh. everytime the band comes out with something uncharacteristic we say it sucks and when they do more of the same old stuff we say they're recycling... whats it gonna be>?

thiskidluvslife
08-29-2007, 09:28 AM
if thats accurate than it just goes to show that dave isn't doing anything new and is just recycling old ideas

who gives a shit? it's a good song..

gilstein21
09-11-2007, 07:07 PM
the song is down by the river without the bridge.