PDA

View Full Version : ** Can somebody Tab Out the guitar for CAN'T STOP in standard for me??


Smittay
09-03-2007, 12:09 AM
i was going to come home tonight from this wedding and try to figure it out...i just didnt and have to go to bed now

i bet its easy,

but if anyone has a tab for the guitar part, could you please share it?
im getting new strings tomorrow and really want to be able to play this AND sing it at the same time.

instead of an echo, i think im going to do more of a syncopated palm mute...

well, if someone has it easy to share, that would be awesome

thanks
smitt

Smittay
09-03-2007, 12:11 AM
and yes, i like the dave version of the song

even with the "junkie" lyrics. you just see how addicted he is to his girl. its like a drug baby, yeah....

the scotland version was on from the EUROPE 07 bonus disc in the car and i just really loved it tonight.

i dont mind that version at all !!! :) :upyours

Carter41
09-05-2007, 12:59 AM
http://www.dmbtabs.com/boards/viewtopic.php?t=32827

Dropped D tuning (DADGBE)
Main riff
E----------------------------------------
B----------------------------------------
G----------------------------------------
D-------------------3-4------------------
A---3-5-3-5p3-0-3-5-----5-3-5p3-0-3-5----
D-0--------------------------------------

"I'm like a junkie..."
E----------------
B----------------
G--5-------------
D--5-------------
A--3-------------
D----------------

"So hungry..."
E--------------------------------------
B--------------------------------------
G-------------------------------5------
D--9--7--5------------9--7--5---5------
A--9--7--5------------9--7--5---3------
D--9--7--5----12--11--9--7--5----------

Smittay
09-12-2007, 08:31 PM
http://www.dmbtabs.com/boards/viewtopic.php?t=32827

Dropped D tuning (DADGBE)
Main riff
E----------------------------------------
B----------------------------------------
G----------------------------------------
D-------------------3-4------------------
A---3-5-3-5p3-0-3-5-----5-3-5p3-0-3-5----
D-0--------------------------------------

"I'm like a junkie..."
E----------------
B----------------
G--5-------------
D--5-------------
A--3-------------
D----------------

"So hungry..."
E--------------------------------------
B--------------------------------------
G-------------------------------5------
D--9--7--5------------9--7--5---5------
A--9--7--5------------9--7--5---3------
D--9--7--5----12--11--9--7--5----------


thanks man, missed that...