PDA

View Full Version : A Dream So Real Tab


dmb8021
11-08-2007, 09:32 PM
I'm not sure how much Dave actually plays on guitar for this song, but does anyone have a good tab for this song? This was what was posted at dmbtabs, but some of it doesn't sound right:

A Dream So Real
Fish

Verse/Jam:
E: -----------------------
B: --4--6--4--3--3--6--4--
G: --5--7--5--4--4--7--5--
D: --5--7--5--X--x--7--5-- Then back to beginning
A: --3--5--3--2--2--5--3--
E: ----------(3)-3--------

Chorus:
E: --------------
B: --8(6)-4-----
G: --8--7--5--7--
D: --8--8--5--8--
A: --6--5--3--8--
E: -----------6--

Dheibs
11-15-2007, 12:18 AM
the verse sounds pretty bad. but the chorus sounds alright to me but idk about the A# major.