PDA

View Full Version : Funny the Way It Is TAb


jahlive
04-14-2009, 03:14 PM
Who's got it?

Penguins66
04-14-2009, 04:58 PM
dmbtabs.com has one in the forum.

thiskidluvslife
04-14-2009, 05:17 PM
probably wrong, but what i came up with..

the opening chord is Am, can't figure out the next one, then G, and F

seems to be the verse

chorus is pretty simple

C, G, Bm, F

these little breakdowns are much tougher, missing a note i feel like

the one after the chorus is something like

e-------------------------------
B------------------------------
G------?--5--7--9--10-12--14--
D---3--------------------------
A------?--3--5--7--8--10--12--
E---1--------------------------

the other one.. "standing on a bridge"

e----------------------------------------------------
B----------------------------------------------------
G--77--1010--33--77--5-----------10------9--------
D----------------------------------------------------
A--55--8--8--11--55--3--------8-------7-------------
E-----------------------------------------------------

"stars..."

seems to be G

back to verse and chorus

and throw those fills or breakdowns in and it's pretty much a starting point form someone else to come in a fix it up.. this is just what i figured out and heard in like 15 min

trippinbillyrmc
04-16-2009, 05:05 PM
http://www.youtube.com/watch?v=Z4E4MRB9-rI&feature=related

not bad...

jahlive
04-20-2009, 03:51 PM
http://www.youtube.com/watch?v=Z4E4MRB9-rI&feature=related

not bad...

he's got it down but he has no rhythym and I think he needs to take a shit.:lol