PDA

View Full Version : Gaucho


trippinbillyrmc
05-21-2012, 01:03 PM
Anyone figure this one out yet?

trippinbillyrmc
05-21-2012, 01:16 PM
Found it thanks Thrawn:

So it should be this:


Riff / Verses / "Please Wake Up":

E|--------------------------------------
B|--------------------------------------
G|--------------------------------------
D|--------3--------1--------6--4--3-----
A|-----4--------3--------4-----------4--
E|--6--------4--------2-----------------

(that 1 on the D string is how he plays it, but I think 6 on the A string is way less awkward there)


Chorus:

E|--6--6--2-----
B|--7--7--2-----
G|--8--8--3-----
D|--8--8--4--3--
A|--6--6--4--4--
E|--------2--1--


Chorus variant (after heartbeat breakdown):

E|--6--------2-----
B|--7--------2-----
G|--8--------3-----
D|--8--8--6--4--3--
A|--6--------4--4--
E|-----6--4--2--1--

(For the rhythm there, he hits the Bb on "more" and the Ab on the first syllable of "believe" in the line "you gotta do much more than believe")


Bridge:

E|--0--2--2--2--
B|--0--4--3--2--
G|--1--4--2--3--
D|--2--4--0--4--
A|--2--2--0--4--
E|--0--------2--

Josh.0
05-29-2012, 08:15 AM
At last! An interesting guitar part!

BigVodka
06-04-2012, 01:46 AM
(that 1 on the D string is how he plays it, but I think 6 on the A string is way less awkward there)


wouldn't be dave with out some awkwardness. this album looks to be some fun in deciphering some 'classic' type dave riffs